Forum Thread: How to Play "We Were in Love" by T-ARA & Davichi [Guitar Tabs]

T-ARA & Davichi : We Were in Love
Guitar cover by Yazan Markabi

Facebook : https://facebook.com/yazanmarkabi

Tabs :

(Part 1)

e-----------------
B-----------------
G--8-10-13-12-10-8
D-----------------
A-----------------
E-----------------

e------------------------------
B------------------------------
G-5-7-5-7-3---5-7-5-3-2-3-2----
D-------------------------------------3-5
A------------------------------
E------------------------------

(Part 2)

e-------------------
B-------------------
G--12-14-15-14-12-10
D-------------------
A-------------------
E-------------------

e------------------------
B------------------------
G------10-12-10-12-------
D--12------------------10-12
A------------------------
E------------------------

e--------------------------------
B--------------------------------
G--------------12-14-12-10-12-------
D-12-13-15---------------------10-12
A--------------------------------
E--------------------------------

e----------------------
B----------------------
G--12-14-15-15-17-15-14
D----------------------
A----------------------
E----------------------

e---------------------
B----------------------13-15
G-15-14-12-14-15------
D---------------------
A---------------------
E---------------------

e---------------------------
B-15-13-11-10-11-10-----------10-8
G----------------------------10-----
D---------------------------
A---------------------------
E---------------------------

(Part 3)

e--------------------
B--------------------
G--------------------
D-8-10-12-10-12-13-12
A--------------------
E--------------------

e--------------------
B--------------------
G---------------------10-7
D-8-10-12-10-12------
A--------------------
E--------------------

e----------------------
B----------------------
G-7-8-12---14-12-10-8-7
D----------------------
A----------------------
E----------------------

e------------------------------
B------------------------------
G------------12-12----------14-14--
D--8-10-12---------12-12---------
A------------------------------
E------------------------------

e-----------------
B-----------------
G--15-14-12-------
D---------------15-12
A-----------------
E-----------------

e---------------------------
B---------------------------
G--------------------------------10-12
D-10-12--10-8--8-10-12------
A---------------------------
E---------------------------

Daily Tips For Your Phone

Get the Gadget Hacks newsletter for new tips every day.

Be the First to Respond

Share Your Thoughts

  • Hot
  • Active