How To: Play "Why" by Ayaka [Guitar Tabs]

Play "Why" by Ayaka [Guitar Tabs]

How to Play "Why" by Ayaka [Guitar Tabs]

This is a guitar cover of Ayaka's "Why" song by Yazan Markabi. Tabs below the video.

Guitar Tabs:

e-------------------------
B-------------------------
G--5-7-5--7--5-7s9--------
D----------------------7--
A-------------------------
E-------------------------

e-----------------------------
B-----------------------------
G--5-7-5--7--5--5s7--5-5------
D--------------------------5--
A-----------------------------
E-----------------------------

e-------------------------
B-------------------------
G--5-7-5--7--5-7s9--------
D----------------------7--
A-------------------------
E-------------------------

e--------------------------
B------10--8--8------------
G----------------9--9---7--
D--5-5---------------------
A--------------------------
E--------------------------

e---------------------------------------­------------
B------5-----------5-----------5-8--6--6­--5--5------
G--5-7---------5-7---------5-7----------­---------7--
D--------7-----------7------------------­------------
A---------------------------------------­------------
E---------------------------------------­------------

e------------------------8--------------
B------5-----------5-8-6---5--5--6p5----
G--5-7---------5-7-------------------7--
D--------7------------------------------
A---------------------------------------
E---------------------------------------

e------8-8--8s12------------------------­------------------
B--/8--------------8-8--8s10---8---8---8­-8h10--8----------
G--------------------------------9---9--­---------9--7-----
D---------------------------------------­--------------10--
A---------------------------------------­------------------
E---------------------------------------­------------------

e--8-8--8s12----------------------------­-
B--------------8-8--8s10---8---8---8h10-­-
G----------------------------9---9------­-
D---------------------------------------­-
A---------------------------------------­-
E---------------------------------------­-

e---------------------------------------­---------5---------
B---------------------------------------­---5--8----5-------
G----7-5-7-5-7--5-7--5-7s9----7-5-7-5-7-­-5------------7-5--
D--7------------------------------------­-------------------
A---------------------------------------­-------------------
E---------------------------------------­-------------------

e---------------------------------------­--
B---------------------------------------­--
G--7p5-----7br9----5-7-5--7--5--7s9-----­--
D--------------------------------------7­--
A---------------------------------------­--
E---------------------------------------­--

e-------------------------
B-------------------------
G--5-7-5--7--5--5s7--5----
D----------------------5--
A-------------------------
E-------------------------

e-------------------------
B-------------------------
G--5-7-5--7--5-7s9--------
D----------------------7--
A-------------------------
E-------------------------

e--------------------------
B------10--8--8------------
G----------------9--9---7--
D--5-5---------------------
A--------------------------
E--------------------------

e---------------------------------------­------------
B------5-----------5-----------5-8--6--6­--5--5------
G--5-7---------5-7---------5-7----------­---------7--
D--------7-----------7------------------­------------
A---------------------------------------­------------
E---------------------------------------­------------

e------------------------8--------------
B------5-----------5-8-6---5--5--6p5----
G--5-7---------5-7-------------------7--
D--------7------------------------------
A---------------------------------------
E---------------------------------------

e--8---8s12--
B------------
G------------
D------------
A------------
E------------

Be the First to Comment

Share Your Thoughts

  • Hot
  • Latest