How To: Play Detective Conan Theme on Guitar

Play Detective Conan Theme on Guitar

How to Play Detective Conan Theme on Guitar

Shinichi Kudo Detective Conan Cartoon Music
Guitar Cover by Yazan Markabi

here are Tabs :

Notice : copy & paste on note for better reading.
I followed version 2 on my recorded video.

e-----------------------------
B----------13-------------14--13-11
G-13-12-10-------13-10-12-----------
D-----------------------------
A-----------------------------
E-----------------------------

e-----------------------------
B-9-10--9-10-13--------------------
G-----------------13-12-10--15--13-12
D-----------------------------
A-----------------------------
E-----------------------------

or
e-----------------------------
B----------13-----------13-13-11----
G-12--10-----13-12-10-----------------
D-----------------------------
A-----------------------------
E-----------------------------

e-----------------------------
B----11----11-13-----------------
G-13----13---------13-12-10-13-13-12
D-----------------------------
A-----------------------------
E-----------------------------
or

e------------------------13----11
B---------------13----11----------14-13-­11-13
G-10-12-13--10-----13----------------
D-----------------------------
A-----------------------------
E-----------------------------

LOOP

e-----------------------------
B----------13---------------14--13-11
G-13-12-10-------13-10-(12)
D-----------------------------
A-----------------------------
E-----------------------------

same other 2 sections..

(part 2)

e----------13---12-13-16-15-13---11-----
B-13-13-16----------------------
G-----------------------------
D-----------------------------
A-----------------------------
E-----------------------------

e-11-13-----------------------
B--------------------------13-
G---------13-15----13-15------
D-----------------------------
A-----------------------------
E-----------------------------

e-----------------------------
B---------13-14--13-11--------
G-13-15-----------------------
D-----------------------------
A-----------------------------
E-----------------------------

e-----------------------------
B-13-11----11-13--15--------
G-------14--------------------
D-----------------------------
A-----------------------------
E-----------------------------

(Part 2 version 2)

e-------------12----------13-16-15--15-1­4---------
B-13-13-16----------15------------------­-----15--16
G-----------------------------
D-----------------------------
A-----------------------------
E-----------------------------

e-----------------------------
B--------------------------13--
G-16-15---------13-15--------
D------------14----------------
A------------------------------
E------------------------------

e-----------------------------
B---------13-14-13-14--------16--16­16-15-16-15---16---16-17-19-20-20
G-13-15------speed------15------------
D-----------------------------
A-----------------------------
E-----------------------------

(part 3)

e-----------------------------
B------------13-----------------14--13-1­1
G-13-12-10----------13-10-12-----------
D-----------------------------
A-----------------------------
E-----------------------------

e------------------------11-13-17-15-11-­--13
B-9-10--9-10-13-13-14-----------------
G----------------------------
D----------------------------
A----------------------------
E----------------------------

e-13-13-13-------------------------
B-------------13-14--11-14-----------
G---------------------------12-13-10-
D----------------------------
A----------------------------
E----------------------------

(Part 3 version 2)

e-----------------------------
B------------13----------------14--13-11
G-13-12-10---------13-10-12-----------
D-----------------------------
A-----------------------------
E-----------------------------

e----------------------------------13-1­5-15-12--13
B-----11------11-13---13-14-16----------
G-13------13--------------------
D-----------------------------
A-----------------------------
E-----------------------------

Be the First to Comment

Share Your Thoughts

  • Hot
  • Latest